ISO-10303-21;
HEADER;
/* Generated by software containing ST-Developer
 * from STEP Tools, Inc. (www.steptools.com) 
 */

FILE_DESCRIPTION(
/* description */ (''),
/* implementation_level */ '2;1');

FILE_NAME(
/* name */ 
'T:\\SB PRODUKSJON AS\\3 PRODUKTER\\4 TRAPPEFORBINDELSER\\3 Vertikal g
ummiflens for repos GF 100\\Tegninger\\STEP\\GF 100.stp',
/* time_stamp */ '2016-06-21T18:19:18+02:00',
/* author */ ('OEM'),
/* organization */ (''),
/* preprocessor_version */ 'ST-DEVELOPER v15.2',
/* originating_system */ 'Autodesk Inventor 2014',
/* authorisation */ '');

FILE_SCHEMA (('CONFIG_CONTROL_DESIGN'));
ENDSEC;

DATA;
#10=SHAPE_REPRESENTATION_RELATIONSHIP('SRR','None',#467,#11);
#11=ADVANCED_BREP_SHAPE_REPRESENTATION($,(#284),#458);
#12=FACE_BOUND($,#50,.T.);
#13=FACE_BOUND($,#51,.T.);
#14=FACE_BOUND($,#52,.T.);
#15=FACE_BOUND($,#53,.T.);
#16=PLANE($,#289);
#17=PLANE($,#293);
#18=PLANE($,#297);
#19=PLANE($,#301);
#20=PLANE($,#302);
#21=PLANE($,#303);
#22=PLANE($,#304);
#23=PLANE($,#305);
#24=PLANE($,#306);
#25=PLANE($,#307);
#26=FACE_OUTER_BOUND($,#38,.T.);
#27=FACE_OUTER_BOUND($,#39,.T.);
#28=FACE_OUTER_BOUND($,#40,.T.);
#29=FACE_OUTER_BOUND($,#41,.T.);
#30=FACE_OUTER_BOUND($,#42,.T.);
#31=FACE_OUTER_BOUND($,#43,.T.);
#32=FACE_OUTER_BOUND($,#44,.T.);
#33=FACE_OUTER_BOUND($,#45,.T.);
#34=FACE_OUTER_BOUND($,#46,.T.);
#35=FACE_OUTER_BOUND($,#47,.T.);
#36=FACE_OUTER_BOUND($,#48,.T.);
#37=FACE_OUTER_BOUND($,#49,.T.);
#38=EDGE_LOOP($,(#178,#179,#180,#181));
#39=EDGE_LOOP($,(#182,#183,#184,#185));
#40=EDGE_LOOP($,(#186,#187,#188,#189));
#41=EDGE_LOOP($,(#190,#191,#192,#193));
#42=EDGE_LOOP($,(#194,#195,#196,#197));
#43=EDGE_LOOP($,(#198,#199,#200,#201));
#44=EDGE_LOOP($,(#202,#203,#204,#205));
#45=EDGE_LOOP($,(#206,#207,#208,#209));
#46=EDGE_LOOP($,(#210,#211,#212,#213));
#47=EDGE_LOOP($,(#214,#215,#216,#217));
#48=EDGE_LOOP($,(#218,#219,#220,#221));
#49=EDGE_LOOP($,(#222,#223,#224,#225));
#50=EDGE_LOOP($,(#226,#227,#228,#229,#230,#231,#232,#233));
#51=EDGE_LOOP($,(#234,#235,#236,#237));
#52=EDGE_LOOP($,(#238,#239,#240,#241,#242,#243,#244,#245));
#53=EDGE_LOOP($,(#246,#247,#248,#249));
#54=LINE($,#388,#82);
#55=LINE($,#391,#83);
#56=LINE($,#394,#84);
#57=LINE($,#396,#85);
#58=LINE($,#397,#86);
#59=LINE($,#403,#87);
#60=LINE($,#406,#88);
#61=LINE($,#408,#89);
#62=LINE($,#409,#90);
#63=LINE($,#415,#91);
#64=LINE($,#418,#92);
#65=LINE($,#420,#93);
#66=LINE($,#421,#94);
#67=LINE($,#427,#95);
#68=LINE($,#429,#96);
#69=LINE($,#430,#97);
#70=LINE($,#434,#98);
#71=LINE($,#436,#99);
#72=LINE($,#438,#100);
#73=LINE($,#439,#101);
#74=LINE($,#442,#102);
#75=LINE($,#444,#103);
#76=LINE($,#445,#104);
#77=LINE($,#448,#105);
#78=LINE($,#450,#106);
#79=LINE($,#451,#107);
#80=LINE($,#453,#108);
#81=LINE($,#454,#109);
#82=VECTOR($,#314,5.);
#83=VECTOR($,#317,5.);
#84=VECTOR($,#320,55.);
#85=VECTOR($,#321,55.);
#86=VECTOR($,#322,5.);
#87=VECTOR($,#329,5.);
#88=VECTOR($,#332,115.);
#89=VECTOR($,#333,115.);
#90=VECTOR($,#334,5.);
#91=VECTOR($,#341,5.);
#92=VECTOR($,#344,55.);
#93=VECTOR($,#345,55.);
#94=VECTOR($,#346,5.);
#95=VECTOR($,#353,5.);
#96=VECTOR($,#356,115.);
#97=VECTOR($,#357,115.);
#98=VECTOR($,#360,190.);
#99=VECTOR($,#361,5.);
#100=VECTOR($,#362,190.);
#101=VECTOR($,#363,5.);
#102=VECTOR($,#366,240.);
#103=VECTOR($,#367,5.);
#104=VECTOR($,#368,240.);
#105=VECTOR($,#371,190.);
#106=VECTOR($,#372,5.);
#107=VECTOR($,#373,190.);
#108=VECTOR($,#376,240.);
#109=VECTOR($,#377,240.);
#110=CIRCLE($,#287,3.00000000000004);
#111=CIRCLE($,#288,3.00000000000004);
#112=CIRCLE($,#291,3.00000000000004);
#113=CIRCLE($,#292,3.00000000000004);
#114=CIRCLE($,#295,2.99999999999997);
#115=CIRCLE($,#296,2.99999999999997);
#116=CIRCLE($,#299,2.99999999999998);
#117=CIRCLE($,#300,2.99999999999998);
#118=VERTEX_POINT($,#384);
#119=VERTEX_POINT($,#385);
#120=VERTEX_POINT($,#387);
#121=VERTEX_POINT($,#389);
#122=VERTEX_POINT($,#393);
#123=VERTEX_POINT($,#395);
#124=VERTEX_POINT($,#399);
#125=VERTEX_POINT($,#401);
#126=VERTEX_POINT($,#405);
#127=VERTEX_POINT($,#407);
#128=VERTEX_POINT($,#411);
#129=VERTEX_POINT($,#413);
#130=VERTEX_POINT($,#417);
#131=VERTEX_POINT($,#419);
#132=VERTEX_POINT($,#423);
#133=VERTEX_POINT($,#425);
#134=VERTEX_POINT($,#432);
#135=VERTEX_POINT($,#433);
#136=VERTEX_POINT($,#435);
#137=VERTEX_POINT($,#437);
#138=VERTEX_POINT($,#441);
#139=VERTEX_POINT($,#443);
#140=VERTEX_POINT($,#447);
#141=VERTEX_POINT($,#449);
#142=EDGE_CURVE($,#118,#119,#110,.T.);
#143=EDGE_CURVE($,#120,#118,#54,.T.);
#144=EDGE_CURVE($,#121,#120,#111,.T.);
#145=EDGE_CURVE($,#121,#119,#55,.T.);
#146=EDGE_CURVE($,#119,#122,#56,.T.);
#147=EDGE_CURVE($,#123,#121,#57,.T.);
#148=EDGE_CURVE($,#123,#122,#58,.T.);
#149=EDGE_CURVE($,#122,#124,#112,.T.);
#150=EDGE_CURVE($,#125,#123,#113,.T.);
#151=EDGE_CURVE($,#125,#124,#59,.T.);
#152=EDGE_CURVE($,#124,#126,#60,.T.);
#153=EDGE_CURVE($,#127,#125,#61,.T.);
#154=EDGE_CURVE($,#127,#126,#62,.T.);
#155=EDGE_CURVE($,#126,#128,#114,.T.);
#156=EDGE_CURVE($,#129,#127,#115,.T.);
#157=EDGE_CURVE($,#129,#128,#63,.T.);
#158=EDGE_CURVE($,#128,#130,#64,.T.);
#159=EDGE_CURVE($,#131,#129,#65,.T.);
#160=EDGE_CURVE($,#131,#130,#66,.T.);
#161=EDGE_CURVE($,#130,#132,#116,.T.);
#162=EDGE_CURVE($,#133,#131,#117,.T.);
#163=EDGE_CURVE($,#133,#132,#67,.T.);
#164=EDGE_CURVE($,#132,#118,#68,.T.);
#165=EDGE_CURVE($,#120,#133,#69,.T.);
#166=EDGE_CURVE($,#134,#135,#70,.T.);
#167=EDGE_CURVE($,#136,#135,#71,.T.);
#168=EDGE_CURVE($,#137,#136,#72,.T.);
#169=EDGE_CURVE($,#137,#134,#73,.T.);
#170=EDGE_CURVE($,#135,#138,#74,.T.);
#171=EDGE_CURVE($,#139,#138,#75,.T.);
#172=EDGE_CURVE($,#136,#139,#76,.T.);
#173=EDGE_CURVE($,#138,#140,#77,.T.);
#174=EDGE_CURVE($,#141,#140,#78,.T.);
#175=EDGE_CURVE($,#139,#141,#79,.T.);
#176=EDGE_CURVE($,#140,#134,#80,.T.);
#177=EDGE_CURVE($,#141,#137,#81,.T.);
#178=ORIENTED_EDGE($,*,*,#142,.F.);
#179=ORIENTED_EDGE($,*,*,#143,.F.);
#180=ORIENTED_EDGE($,*,*,#144,.F.);
#181=ORIENTED_EDGE($,*,*,#145,.T.);
#182=ORIENTED_EDGE($,*,*,#146,.F.);
#183=ORIENTED_EDGE($,*,*,#145,.F.);
#184=ORIENTED_EDGE($,*,*,#147,.F.);
#185=ORIENTED_EDGE($,*,*,#148,.T.);
#186=ORIENTED_EDGE($,*,*,#149,.F.);
#187=ORIENTED_EDGE($,*,*,#148,.F.);
#188=ORIENTED_EDGE($,*,*,#150,.F.);
#189=ORIENTED_EDGE($,*,*,#151,.T.);
#190=ORIENTED_EDGE($,*,*,#152,.F.);
#191=ORIENTED_EDGE($,*,*,#151,.F.);
#192=ORIENTED_EDGE($,*,*,#153,.F.);
#193=ORIENTED_EDGE($,*,*,#154,.T.);
#194=ORIENTED_EDGE($,*,*,#155,.F.);
#195=ORIENTED_EDGE($,*,*,#154,.F.);
#196=ORIENTED_EDGE($,*,*,#156,.F.);
#197=ORIENTED_EDGE($,*,*,#157,.T.);
#198=ORIENTED_EDGE($,*,*,#158,.F.);
#199=ORIENTED_EDGE($,*,*,#157,.F.);
#200=ORIENTED_EDGE($,*,*,#159,.F.);
#201=ORIENTED_EDGE($,*,*,#160,.T.);
#202=ORIENTED_EDGE($,*,*,#161,.F.);
#203=ORIENTED_EDGE($,*,*,#160,.F.);
#204=ORIENTED_EDGE($,*,*,#162,.F.);
#205=ORIENTED_EDGE($,*,*,#163,.T.);
#206=ORIENTED_EDGE($,*,*,#164,.F.);
#207=ORIENTED_EDGE($,*,*,#163,.F.);
#208=ORIENTED_EDGE($,*,*,#165,.F.);
#209=ORIENTED_EDGE($,*,*,#143,.T.);
#210=ORIENTED_EDGE($,*,*,#166,.T.);
#211=ORIENTED_EDGE($,*,*,#167,.F.);
#212=ORIENTED_EDGE($,*,*,#168,.F.);
#213=ORIENTED_EDGE($,*,*,#169,.T.);
#214=ORIENTED_EDGE($,*,*,#170,.T.);
#215=ORIENTED_EDGE($,*,*,#171,.F.);
#216=ORIENTED_EDGE($,*,*,#172,.F.);
#217=ORIENTED_EDGE($,*,*,#167,.T.);
#218=ORIENTED_EDGE($,*,*,#173,.T.);
#219=ORIENTED_EDGE($,*,*,#174,.F.);
#220=ORIENTED_EDGE($,*,*,#175,.F.);
#221=ORIENTED_EDGE($,*,*,#171,.T.);
#222=ORIENTED_EDGE($,*,*,#176,.T.);
#223=ORIENTED_EDGE($,*,*,#169,.F.);
#224=ORIENTED_EDGE($,*,*,#177,.F.);
#225=ORIENTED_EDGE($,*,*,#174,.T.);
#226=ORIENTED_EDGE($,*,*,#142,.T.);
#227=ORIENTED_EDGE($,*,*,#146,.T.);
#228=ORIENTED_EDGE($,*,*,#149,.T.);
#229=ORIENTED_EDGE($,*,*,#152,.T.);
#230=ORIENTED_EDGE($,*,*,#155,.T.);
#231=ORIENTED_EDGE($,*,*,#158,.T.);
#232=ORIENTED_EDGE($,*,*,#161,.T.);
#233=ORIENTED_EDGE($,*,*,#164,.T.);
#234=ORIENTED_EDGE($,*,*,#166,.F.);
#235=ORIENTED_EDGE($,*,*,#176,.F.);
#236=ORIENTED_EDGE($,*,*,#173,.F.);
#237=ORIENTED_EDGE($,*,*,#170,.F.);
#238=ORIENTED_EDGE($,*,*,#144,.T.);
#239=ORIENTED_EDGE($,*,*,#165,.T.);
#240=ORIENTED_EDGE($,*,*,#162,.T.);
#241=ORIENTED_EDGE($,*,*,#159,.T.);
#242=ORIENTED_EDGE($,*,*,#156,.T.);
#243=ORIENTED_EDGE($,*,*,#153,.T.);
#244=ORIENTED_EDGE($,*,*,#150,.T.);
#245=ORIENTED_EDGE($,*,*,#147,.T.);
#246=ORIENTED_EDGE($,*,*,#177,.T.);
#247=ORIENTED_EDGE($,*,*,#168,.T.);
#248=ORIENTED_EDGE($,*,*,#172,.T.);
#249=ORIENTED_EDGE($,*,*,#175,.T.);
#250=CYLINDRICAL_SURFACE($,#286,3.00000000000004);
#251=CYLINDRICAL_SURFACE($,#290,3.00000000000004);
#252=CYLINDRICAL_SURFACE($,#294,2.99999999999997);
#253=CYLINDRICAL_SURFACE($,#298,2.99999999999998);
#254=STYLED_ITEM($,(#476),#269);
#255=STYLED_ITEM($,(#476),#270);
#256=STYLED_ITEM($,(#476),#271);
#257=STYLED_ITEM($,(#476),#272);
#258=STYLED_ITEM($,(#476),#273);
#259=STYLED_ITEM($,(#476),#274);
#260=STYLED_ITEM($,(#476),#275);
#261=STYLED_ITEM($,(#476),#276);
#262=STYLED_ITEM($,(#476),#277);
#263=STYLED_ITEM($,(#476),#278);
#264=STYLED_ITEM($,(#476),#279);
#265=STYLED_ITEM($,(#476),#280);
#266=STYLED_ITEM($,(#476),#281);
#267=STYLED_ITEM($,(#476),#282);
#268=STYLED_ITEM($,(#475),#284);
#269=ADVANCED_FACE($,(#26),#250,.F.);
#270=ADVANCED_FACE($,(#27),#16,.F.);
#271=ADVANCED_FACE($,(#28),#251,.F.);
#272=ADVANCED_FACE($,(#29),#17,.F.);
#273=ADVANCED_FACE($,(#30),#252,.F.);
#274=ADVANCED_FACE($,(#31),#18,.F.);
#275=ADVANCED_FACE($,(#32),#253,.F.);
#276=ADVANCED_FACE($,(#33),#19,.F.);
#277=ADVANCED_FACE($,(#34),#20,.T.);
#278=ADVANCED_FACE($,(#35),#21,.T.);
#279=ADVANCED_FACE($,(#36),#22,.T.);
#280=ADVANCED_FACE($,(#37),#23,.T.);
#281=ADVANCED_FACE($,(#12,#13),#24,.T.);
#282=ADVANCED_FACE($,(#14,#15),#25,.F.);
#283=CLOSED_SHELL($,(#269,#270,#271,#272,#273,#274,#275,#276,#277,#278,
#279,#280,#281,#282));
#284=MANIFOLD_SOLID_BREP('Solid1',#283);
#285=AXIS2_PLACEMENT_3D('placement',#382,#308,#309);
#286=AXIS2_PLACEMENT_3D($,#383,#310,#311);
#287=AXIS2_PLACEMENT_3D($,#386,#312,#313);
#288=AXIS2_PLACEMENT_3D($,#390,#315,#316);
#289=AXIS2_PLACEMENT_3D($,#392,#318,#319);
#290=AXIS2_PLACEMENT_3D($,#398,#323,#324);
#291=AXIS2_PLACEMENT_3D($,#400,#325,#326);
#292=AXIS2_PLACEMENT_3D($,#402,#327,#328);
#293=AXIS2_PLACEMENT_3D($,#404,#330,#331);
#294=AXIS2_PLACEMENT_3D($,#410,#335,#336);
#295=AXIS2_PLACEMENT_3D($,#412,#337,#338);
#296=AXIS2_PLACEMENT_3D($,#414,#339,#340);
#297=AXIS2_PLACEMENT_3D($,#416,#342,#343);
#298=AXIS2_PLACEMENT_3D($,#422,#347,#348);
#299=AXIS2_PLACEMENT_3D($,#424,#349,#350);
#300=AXIS2_PLACEMENT_3D($,#426,#351,#352);
#301=AXIS2_PLACEMENT_3D($,#428,#354,#355);
#302=AXIS2_PLACEMENT_3D($,#431,#358,#359);
#303=AXIS2_PLACEMENT_3D($,#440,#364,#365);
#304=AXIS2_PLACEMENT_3D($,#446,#369,#370);
#305=AXIS2_PLACEMENT_3D($,#452,#374,#375);
#306=AXIS2_PLACEMENT_3D($,#455,#378,#379);
#307=AXIS2_PLACEMENT_3D($,#456,#380,#381);
#308=DIRECTION('axis',(0.,0.,1.));
#309=DIRECTION('refdir',(1.,0.,0.));
#310=DIRECTION('center_axis',(0.,0.,1.));
#311=DIRECTION('ref_axis',(-1.,-1.18423789293348E-014,0.));
#312=DIRECTION('center_axis',(0.,0.,-1.));
#313=DIRECTION('ref_axis',(-1.,-1.18423789293348E-014,0.));
#314=DIRECTION($,(0.,0.,1.));
#315=DIRECTION('center_axis',(0.,0.,1.));
#316=DIRECTION('ref_axis',(-1.,-1.18423789293348E-014,0.));
#317=DIRECTION($,(0.,0.,1.));
#318=DIRECTION('center_axis',(1.,0.,0.));
#319=DIRECTION('ref_axis',(0.,0.,-1.));
#320=DIRECTION($,(0.,-1.,0.));
#321=DIRECTION($,(0.,1.,0.));
#322=DIRECTION($,(0.,0.,1.));
#323=DIRECTION('center_axis',(0.,0.,1.));
#324=DIRECTION('ref_axis',(-1.18423789293348E-014,1.,0.));
#325=DIRECTION('center_axis',(0.,0.,-1.));
#326=DIRECTION('ref_axis',(-1.18423789293348E-014,1.,0.));
#327=DIRECTION('center_axis',(0.,0.,1.));
#328=DIRECTION('ref_axis',(-1.18423789293348E-014,1.,0.));
#329=DIRECTION($,(0.,0.,1.));
#330=DIRECTION('center_axis',(1.54465812121761E-016,-1.,0.));
#331=DIRECTION('ref_axis',(0.,0.,-1.));
#332=DIRECTION($,(-1.,-1.54465812121761E-016,0.));
#333=DIRECTION($,(1.,1.54465812121761E-016,0.));
#334=DIRECTION($,(0.,0.,1.));
#335=DIRECTION('center_axis',(0.,0.,1.));
#336=DIRECTION('ref_axis',(1.,-1.18423789293351E-014,0.));
#337=DIRECTION('center_axis',(0.,0.,-1.));
#338=DIRECTION('ref_axis',(1.,-1.18423789293351E-014,0.));
#339=DIRECTION('center_axis',(0.,0.,1.));
#340=DIRECTION('ref_axis',(1.,-1.18423789293351E-014,0.));
#341=DIRECTION($,(0.,0.,1.));
#342=DIRECTION('center_axis',(-1.,-4.84460956200068E-016,0.));
#343=DIRECTION('ref_axis',(0.,0.,1.));
#344=DIRECTION($,(-4.84460956200068E-016,1.,0.));
#345=DIRECTION($,(4.84460956200068E-016,-1.,0.));
#346=DIRECTION($,(0.,0.,1.));
#347=DIRECTION('center_axis',(0.,0.,1.));
#348=DIRECTION('ref_axis',(-8.88178419700131E-015,-1.,0.));
#349=DIRECTION('center_axis',(0.,0.,-1.));
#350=DIRECTION('ref_axis',(-8.88178419700131E-015,-1.,0.));
#351=DIRECTION('center_axis',(0.,0.,1.));
#352=DIRECTION('ref_axis',(-8.88178419700131E-015,-1.,0.));
#353=DIRECTION($,(0.,0.,1.));
#354=DIRECTION('center_axis',(-1.54465812121761E-016,1.,0.));
#355=DIRECTION('ref_axis',(0.,0.,1.));
#356=DIRECTION($,(1.,1.54465812121761E-016,0.));
#357=DIRECTION($,(-1.,-1.54465812121761E-016,0.));
#358=DIRECTION('center_axis',(1.,0.,0.));
#359=DIRECTION('ref_axis',(0.,0.,-1.));
#360=DIRECTION($,(0.,-1.,0.));
#361=DIRECTION($,(0.,0.,1.));
#362=DIRECTION($,(0.,-1.,0.));
#363=DIRECTION($,(0.,0.,1.));
#364=DIRECTION('center_axis',(1.48029736616688E-016,-1.,0.));
#365=DIRECTION('ref_axis',(0.,0.,-1.));
#366=DIRECTION($,(-1.,-1.48029736616688E-016,0.));
#367=DIRECTION($,(0.,0.,1.));
#368=DIRECTION($,(-1.,-1.48029736616688E-016,0.));
#369=DIRECTION('center_axis',(-1.,-1.75298372309235E-016,0.));
#370=DIRECTION('ref_axis',(0.,0.,1.));
#371=DIRECTION($,(-1.75298372309235E-016,1.,0.));
#372=DIRECTION($,(0.,0.,1.));
#373=DIRECTION($,(-1.75298372309235E-016,1.,0.));
#374=DIRECTION('center_axis',(9.25185853854297E-018,1.,0.));
#375=DIRECTION('ref_axis',(0.,0.,1.));
#376=DIRECTION($,(1.,-9.25185853854297E-018,0.));
#377=DIRECTION($,(1.,-9.25185853854297E-018,0.));
#378=DIRECTION('center_axis',(0.,0.,1.));
#379=DIRECTION('ref_axis',(1.,0.,0.));
#380=DIRECTION('center_axis',(0.,0.,1.));
#381=DIRECTION('ref_axis',(1.,0.,0.));
#382=CARTESIAN_POINT('',(0.,0.,0.));
#383=CARTESIAN_POINT('Origin',(160.538491119181,-49.6844645274753,0.));
#384=CARTESIAN_POINT('',(160.538491119181,-46.6844645274753,5.));
#385=CARTESIAN_POINT('',(163.538491119181,-49.6844645274753,5.));
#386=CARTESIAN_POINT('Origin',(160.538491119181,-49.6844645274753,5.));
#387=CARTESIAN_POINT('',(160.538491119181,-46.6844645274753,0.));
#388=CARTESIAN_POINT($,(160.538491119181,-46.6844645274753,0.));
#389=CARTESIAN_POINT('',(163.538491119181,-49.6844645274753,0.));
#390=CARTESIAN_POINT('Origin',(160.538491119181,-49.6844645274753,0.));
#391=CARTESIAN_POINT($,(163.538491119181,-49.6844645274753,0.));
#392=CARTESIAN_POINT('Origin',(163.538491119181,-49.6844645274753,0.));
#393=CARTESIAN_POINT('',(163.538491119181,-104.684464527475,5.));
#394=CARTESIAN_POINT($,(163.538491119181,-63.4344645274753,5.));
#395=CARTESIAN_POINT('',(163.538491119181,-104.684464527475,0.));
#396=CARTESIAN_POINT($,(163.538491119181,-63.4344645274753,0.));
#397=CARTESIAN_POINT($,(163.538491119181,-104.684464527475,0.));
#398=CARTESIAN_POINT('Origin',(160.538491119181,-104.684464527475,0.));
#399=CARTESIAN_POINT('',(160.538491119181,-107.684464527475,5.));
#400=CARTESIAN_POINT('Origin',(160.538491119181,-104.684464527475,5.));
#401=CARTESIAN_POINT('',(160.538491119181,-107.684464527475,0.));
#402=CARTESIAN_POINT('Origin',(160.538491119181,-104.684464527475,0.));
#403=CARTESIAN_POINT($,(160.538491119181,-107.684464527475,0.));
#404=CARTESIAN_POINT('Origin',(160.538491119181,-107.684464527475,0.));
#405=CARTESIAN_POINT('',(45.5384911191814,-107.684464527475,5.));
#406=CARTESIAN_POINT($,(131.788491119181,-107.684464527475,5.));
#407=CARTESIAN_POINT('',(45.5384911191814,-107.684464527475,0.));
#408=CARTESIAN_POINT($,(131.788491119181,-107.684464527475,0.));
#409=CARTESIAN_POINT($,(45.5384911191814,-107.684464527475,0.));
#410=CARTESIAN_POINT('Origin',(45.5384911191814,-104.684464527475,0.));
#411=CARTESIAN_POINT('',(42.5384911191814,-104.684464527475,5.));
#412=CARTESIAN_POINT('Origin',(45.5384911191814,-104.684464527475,5.));
#413=CARTESIAN_POINT('',(42.5384911191814,-104.684464527475,0.));
#414=CARTESIAN_POINT('Origin',(45.5384911191814,-104.684464527475,0.));
#415=CARTESIAN_POINT($,(42.5384911191814,-104.684464527475,0.));
#416=CARTESIAN_POINT('Origin',(42.5384911191814,-104.684464527475,0.));
#417=CARTESIAN_POINT('',(42.5384911191814,-49.6844645274753,5.));
#418=CARTESIAN_POINT($,(42.5384911191814,-90.9344645274753,5.));
#419=CARTESIAN_POINT('',(42.5384911191814,-49.6844645274753,0.));
#420=CARTESIAN_POINT($,(42.5384911191814,-90.9344645274753,0.));
#421=CARTESIAN_POINT($,(42.5384911191814,-49.6844645274753,0.));
#422=CARTESIAN_POINT('Origin',(45.5384911191814,-49.6844645274753,0.));
#423=CARTESIAN_POINT('',(45.5384911191814,-46.6844645274753,5.));
#424=CARTESIAN_POINT('Origin',(45.5384911191814,-49.6844645274753,5.));
#425=CARTESIAN_POINT('',(45.5384911191814,-46.6844645274753,0.));
#426=CARTESIAN_POINT('Origin',(45.5384911191814,-49.6844645274753,0.));
#427=CARTESIAN_POINT($,(45.5384911191814,-46.6844645274753,0.));
#428=CARTESIAN_POINT('Origin',(45.5384911191814,-46.6844645274753,0.));
#429=CARTESIAN_POINT($,(74.2884911191814,-46.6844645274753,5.));
#430=CARTESIAN_POINT($,(74.2884911191814,-46.6844645274753,0.));
#431=CARTESIAN_POINT('Origin',(223.038491119181,17.8155354725247,0.));
#432=CARTESIAN_POINT('',(223.038491119181,17.8155354725247,5.));
#433=CARTESIAN_POINT('',(223.038491119181,-172.184464527475,5.));
#434=CARTESIAN_POINT($,(223.038491119181,17.8155354725247,5.));
#435=CARTESIAN_POINT('',(223.038491119181,-172.184464527475,0.));
#436=CARTESIAN_POINT($,(223.038491119181,-172.184464527475,0.));
#437=CARTESIAN_POINT('',(223.038491119181,17.8155354725247,0.));
#438=CARTESIAN_POINT($,(223.038491119181,17.8155354725247,0.));
#439=CARTESIAN_POINT($,(223.038491119181,17.8155354725247,0.));
#440=CARTESIAN_POINT('Origin',(223.038491119181,-172.184464527475,0.));
#441=CARTESIAN_POINT('',(-16.9615088808186,-172.184464527475,5.));
#442=CARTESIAN_POINT($,(223.038491119181,-172.184464527475,5.));
#443=CARTESIAN_POINT('',(-16.9615088808186,-172.184464527475,0.));
#444=CARTESIAN_POINT($,(-16.9615088808186,-172.184464527475,0.));
#445=CARTESIAN_POINT($,(223.038491119181,-172.184464527475,0.));
#446=CARTESIAN_POINT('Origin',(-16.9615088808186,-172.184464527475,0.));
#447=CARTESIAN_POINT('',(-16.9615088808186,17.8155354725247,5.));
#448=CARTESIAN_POINT($,(-16.9615088808186,-172.184464527475,5.));
#449=CARTESIAN_POINT('',(-16.9615088808186,17.8155354725247,0.));
#450=CARTESIAN_POINT($,(-16.9615088808186,17.8155354725247,0.));
#451=CARTESIAN_POINT($,(-16.9615088808186,-172.184464527475,0.));
#452=CARTESIAN_POINT('Origin',(-16.9615088808186,17.8155354725247,0.));
#453=CARTESIAN_POINT($,(-16.9615088808186,17.8155354725247,5.));
#454=CARTESIAN_POINT($,(-16.9615088808186,17.8155354725247,0.));
#455=CARTESIAN_POINT('Origin',(103.038491119181,-77.1844645274753,5.));
#456=CARTESIAN_POINT('Origin',(103.038491119181,-77.1844645274753,0.));
#457=UNCERTAINTY_MEASURE_WITH_UNIT(LENGTH_MEASURE(0.01),#459,
'DISTANCE_ACCURACY_VALUE',
'Maximum model space distance between geometric entities at asserted c
onnectivities');
#458=(
GEOMETRIC_REPRESENTATION_CONTEXT(3)
GLOBAL_UNCERTAINTY_ASSIGNED_CONTEXT((#457))
GLOBAL_UNIT_ASSIGNED_CONTEXT((#459,#462,#460))
REPRESENTATION_CONTEXT('','3D')
);
#459=(
LENGTH_UNIT()
NAMED_UNIT(*)
SI_UNIT(.MILLI.,.METRE.)
);
#460=(
NAMED_UNIT(*)
SI_UNIT($,.STERADIAN.)
SOLID_ANGLE_UNIT()
);
#461=DIMENSIONAL_EXPONENTS(0.,0.,0.,0.,0.,0.,0.);
#462=(
CONVERSION_BASED_UNIT('degree',#464)
NAMED_UNIT(#461)
PLANE_ANGLE_UNIT()
);
#463=(
NAMED_UNIT(*)
PLANE_ANGLE_UNIT()
SI_UNIT($,.RADIAN.)
);
#464=PLANE_ANGLE_MEASURE_WITH_UNIT(PLANE_ANGLE_MEASURE(0.01745329252),#463);
#465=SHAPE_DEFINITION_REPRESENTATION(#466,#467);
#466=PRODUCT_DEFINITION_SHAPE('',$,#469);
#467=SHAPE_REPRESENTATION('',(#285),#458);
#468=DESIGN_CONTEXT('3D Mechanical Parts',#472,'design');
#469=PRODUCT_DEFINITION('Gummiflens RVK-TSS 100',
'Gummiflens RVK-TSS 100',#470,#468);
#470=PRODUCT_DEFINITION_FORMATION('',$,#474);
#471=APPLICATION_PROTOCOL_DEFINITION('international standard',
'ap203_configuration_controlled_3d_design_of_mechanical_parts_and_asse
mblies_mim_lf',2004,#472);
#472=APPLICATION_CONTEXT(
'Configuration Controlled 3D Design of Mechanical Parts and Assemblies');
#473=MECHANICAL_CONTEXT('3D Mechanical Parts',#472,'mechanical');
#474=PRODUCT('Gummiflens RVK-TSS 100','Gummiflens RVK-TSS 100',$,(#473));
#475=PRESENTATION_STYLE_ASSIGNMENT((#477));
#476=PRESENTATION_STYLE_ASSIGNMENT((#478));
#477=SURFACE_STYLE_USAGE(.BOTH.,#479);
#478=SURFACE_STYLE_USAGE(.BOTH.,#480);
#479=SURFACE_SIDE_STYLE($,(#481));
#480=SURFACE_SIDE_STYLE($,(#482));
#481=SURFACE_STYLE_FILL_AREA(#483);
#482=SURFACE_STYLE_FILL_AREA(#484);
#483=FILL_AREA_STYLE($,(#485));
#484=FILL_AREA_STYLE($,(#486));
#485=FILL_AREA_STYLE_COLOUR($,#487);
#486=FILL_AREA_STYLE_COLOUR($,#488);
#487=COLOUR_RGB('',0.749019607843137,0.749019607843137,0.749019607843137);
#488=COLOUR_RGB('',0.,0.,0.);
ENDSEC;
END-ISO-10303-21;
