ISO-10303-21;
HEADER;
/* Generated by software containing ST-Developer
 * from STEP Tools, Inc. (www.steptools.com) 
 */

FILE_DESCRIPTION(
/* description */ (''),
/* implementation_level */ '2;1');

FILE_NAME(
/* name */ 
'T:\\SB PRODUKSJON AS\\3 PRODUKTER\\4 TRAPPEFORBINDELSER\\3 Vertikal g
ummiflens for repos GF 25\\8 Tegninger\\6 STEP\\GF 25.stp',
/* time_stamp */ '2023-02-06T11:32:49+01:00',
/* author */ ('Bruker'),
/* organization */ (''),
/* preprocessor_version */ 'ST-DEVELOPER v18.1',
/* originating_system */ 'Autodesk Inventor 2021',
/* authorisation */ '');

FILE_SCHEMA (('AUTOMOTIVE_DESIGN { 1 0 10303 214 3 1 1 }'));
ENDSEC;

DATA;
#10=MECHANICAL_DESIGN_GEOMETRIC_PRESENTATION_REPRESENTATION('',(#13),#465);
#11=SHAPE_REPRESENTATION_RELATIONSHIP('SRR','None',#472,#12);
#12=ADVANCED_BREP_SHAPE_REPRESENTATION('',(#14),#464);
#13=STYLED_ITEM('',(#481),#14);
#14=MANIFOLD_SOLID_BREP('Solid1',#271);
#15=FACE_BOUND('',#54,.T.);
#16=FACE_BOUND('',#56,.T.);
#17=PLANE('',#294);
#18=PLANE('',#298);
#19=PLANE('',#302);
#20=PLANE('',#306);
#21=PLANE('',#307);
#22=PLANE('',#308);
#23=PLANE('',#309);
#24=PLANE('',#310);
#25=PLANE('',#311);
#26=PLANE('',#312);
#27=FACE_OUTER_BOUND('',#41,.T.);
#28=FACE_OUTER_BOUND('',#42,.T.);
#29=FACE_OUTER_BOUND('',#43,.T.);
#30=FACE_OUTER_BOUND('',#44,.T.);
#31=FACE_OUTER_BOUND('',#45,.T.);
#32=FACE_OUTER_BOUND('',#46,.T.);
#33=FACE_OUTER_BOUND('',#47,.T.);
#34=FACE_OUTER_BOUND('',#48,.T.);
#35=FACE_OUTER_BOUND('',#49,.T.);
#36=FACE_OUTER_BOUND('',#50,.T.);
#37=FACE_OUTER_BOUND('',#51,.T.);
#38=FACE_OUTER_BOUND('',#52,.T.);
#39=FACE_OUTER_BOUND('',#53,.T.);
#40=FACE_OUTER_BOUND('',#55,.T.);
#41=EDGE_LOOP('',(#181,#182,#183,#184));
#42=EDGE_LOOP('',(#185,#186,#187,#188));
#43=EDGE_LOOP('',(#189,#190,#191,#192));
#44=EDGE_LOOP('',(#193,#194,#195,#196));
#45=EDGE_LOOP('',(#197,#198,#199,#200));
#46=EDGE_LOOP('',(#201,#202,#203,#204));
#47=EDGE_LOOP('',(#205,#206,#207,#208));
#48=EDGE_LOOP('',(#209,#210,#211,#212));
#49=EDGE_LOOP('',(#213,#214,#215,#216));
#50=EDGE_LOOP('',(#217,#218,#219,#220));
#51=EDGE_LOOP('',(#221,#222,#223,#224));
#52=EDGE_LOOP('',(#225,#226,#227,#228));
#53=EDGE_LOOP('',(#229,#230,#231,#232));
#54=EDGE_LOOP('',(#233,#234,#235,#236,#237,#238,#239,#240));
#55=EDGE_LOOP('',(#241,#242,#243,#244));
#56=EDGE_LOOP('',(#245,#246,#247,#248,#249,#250,#251,#252));
#57=LINE('',#393,#85);
#58=LINE('',#396,#86);
#59=LINE('',#399,#87);
#60=LINE('',#401,#88);
#61=LINE('',#402,#89);
#62=LINE('',#407,#90);
#63=LINE('',#411,#91);
#64=LINE('',#413,#92);
#65=LINE('',#414,#93);
#66=LINE('',#419,#94);
#67=LINE('',#423,#95);
#68=LINE('',#425,#96);
#69=LINE('',#426,#97);
#70=LINE('',#431,#98);
#71=LINE('',#434,#99);
#72=LINE('',#435,#100);
#73=LINE('',#439,#101);
#74=LINE('',#441,#102);
#75=LINE('',#443,#103);
#76=LINE('',#444,#104);
#77=LINE('',#447,#105);
#78=LINE('',#449,#106);
#79=LINE('',#450,#107);
#80=LINE('',#453,#108);
#81=LINE('',#455,#109);
#82=LINE('',#456,#110);
#83=LINE('',#458,#111);
#84=LINE('',#459,#112);
#85=VECTOR('',#319,10.);
#86=VECTOR('',#322,10.);
#87=VECTOR('',#325,10.);
#88=VECTOR('',#326,10.);
#89=VECTOR('',#327,10.);
#90=VECTOR('',#332,10.);
#91=VECTOR('',#337,10.);
#92=VECTOR('',#338,10.);
#93=VECTOR('',#339,10.);
#94=VECTOR('',#344,10.);
#95=VECTOR('',#349,10.);
#96=VECTOR('',#350,10.);
#97=VECTOR('',#351,10.);
#98=VECTOR('',#356,10.);
#99=VECTOR('',#361,10.);
#100=VECTOR('',#362,10.);
#101=VECTOR('',#365,10.);
#102=VECTOR('',#366,10.);
#103=VECTOR('',#367,10.);
#104=VECTOR('',#368,10.);
#105=VECTOR('',#371,10.);
#106=VECTOR('',#372,10.);
#107=VECTOR('',#373,10.);
#108=VECTOR('',#376,10.);
#109=VECTOR('',#377,10.);
#110=VECTOR('',#378,10.);
#111=VECTOR('',#381,10.);
#112=VECTOR('',#382,10.);
#113=CIRCLE('',#292,2.);
#114=CIRCLE('',#293,2.);
#115=CIRCLE('',#296,2.);
#116=CIRCLE('',#297,2.);
#117=CIRCLE('',#300,2.00000000000001);
#118=CIRCLE('',#301,2.00000000000001);
#119=CIRCLE('',#304,2.);
#120=CIRCLE('',#305,2.);
#121=VERTEX_POINT('',#389);
#122=VERTEX_POINT('',#390);
#123=VERTEX_POINT('',#392);
#124=VERTEX_POINT('',#394);
#125=VERTEX_POINT('',#398);
#126=VERTEX_POINT('',#400);
#127=VERTEX_POINT('',#404);
#128=VERTEX_POINT('',#406);
#129=VERTEX_POINT('',#410);
#130=VERTEX_POINT('',#412);
#131=VERTEX_POINT('',#416);
#132=VERTEX_POINT('',#418);
#133=VERTEX_POINT('',#422);
#134=VERTEX_POINT('',#424);
#135=VERTEX_POINT('',#428);
#136=VERTEX_POINT('',#430);
#137=VERTEX_POINT('',#437);
#138=VERTEX_POINT('',#438);
#139=VERTEX_POINT('',#440);
#140=VERTEX_POINT('',#442);
#141=VERTEX_POINT('',#446);
#142=VERTEX_POINT('',#448);
#143=VERTEX_POINT('',#452);
#144=VERTEX_POINT('',#454);
#145=EDGE_CURVE('',#121,#122,#113,.T.);
#146=EDGE_CURVE('',#121,#123,#57,.T.);
#147=EDGE_CURVE('',#124,#123,#114,.T.);
#148=EDGE_CURVE('',#122,#124,#58,.T.);
#149=EDGE_CURVE('',#125,#121,#59,.T.);
#150=EDGE_CURVE('',#125,#126,#60,.T.);
#151=EDGE_CURVE('',#123,#126,#61,.T.);
#152=EDGE_CURVE('',#127,#125,#115,.T.);
#153=EDGE_CURVE('',#127,#128,#62,.T.);
#154=EDGE_CURVE('',#126,#128,#116,.T.);
#155=EDGE_CURVE('',#129,#127,#63,.T.);
#156=EDGE_CURVE('',#129,#130,#64,.T.);
#157=EDGE_CURVE('',#128,#130,#65,.T.);
#158=EDGE_CURVE('',#131,#129,#117,.T.);
#159=EDGE_CURVE('',#131,#132,#66,.T.);
#160=EDGE_CURVE('',#130,#132,#118,.T.);
#161=EDGE_CURVE('',#133,#131,#67,.T.);
#162=EDGE_CURVE('',#133,#134,#68,.T.);
#163=EDGE_CURVE('',#132,#134,#69,.T.);
#164=EDGE_CURVE('',#135,#133,#119,.T.);
#165=EDGE_CURVE('',#135,#136,#70,.T.);
#166=EDGE_CURVE('',#134,#136,#120,.T.);
#167=EDGE_CURVE('',#122,#135,#71,.T.);
#168=EDGE_CURVE('',#136,#124,#72,.T.);
#169=EDGE_CURVE('',#137,#138,#73,.T.);
#170=EDGE_CURVE('',#137,#139,#74,.T.);
#171=EDGE_CURVE('',#140,#139,#75,.T.);
#172=EDGE_CURVE('',#138,#140,#76,.T.);
#173=EDGE_CURVE('',#138,#141,#77,.T.);
#174=EDGE_CURVE('',#142,#140,#78,.T.);
#175=EDGE_CURVE('',#141,#142,#79,.T.);
#176=EDGE_CURVE('',#141,#143,#80,.T.);
#177=EDGE_CURVE('',#144,#142,#81,.T.);
#178=EDGE_CURVE('',#143,#144,#82,.T.);
#179=EDGE_CURVE('',#143,#137,#83,.T.);
#180=EDGE_CURVE('',#139,#144,#84,.T.);
#181=ORIENTED_EDGE('',*,*,#145,.F.);
#182=ORIENTED_EDGE('',*,*,#146,.T.);
#183=ORIENTED_EDGE('',*,*,#147,.F.);
#184=ORIENTED_EDGE('',*,*,#148,.F.);
#185=ORIENTED_EDGE('',*,*,#149,.F.);
#186=ORIENTED_EDGE('',*,*,#150,.T.);
#187=ORIENTED_EDGE('',*,*,#151,.F.);
#188=ORIENTED_EDGE('',*,*,#146,.F.);
#189=ORIENTED_EDGE('',*,*,#152,.F.);
#190=ORIENTED_EDGE('',*,*,#153,.T.);
#191=ORIENTED_EDGE('',*,*,#154,.F.);
#192=ORIENTED_EDGE('',*,*,#150,.F.);
#193=ORIENTED_EDGE('',*,*,#155,.F.);
#194=ORIENTED_EDGE('',*,*,#156,.T.);
#195=ORIENTED_EDGE('',*,*,#157,.F.);
#196=ORIENTED_EDGE('',*,*,#153,.F.);
#197=ORIENTED_EDGE('',*,*,#158,.F.);
#198=ORIENTED_EDGE('',*,*,#159,.T.);
#199=ORIENTED_EDGE('',*,*,#160,.F.);
#200=ORIENTED_EDGE('',*,*,#156,.F.);
#201=ORIENTED_EDGE('',*,*,#161,.F.);
#202=ORIENTED_EDGE('',*,*,#162,.T.);
#203=ORIENTED_EDGE('',*,*,#163,.F.);
#204=ORIENTED_EDGE('',*,*,#159,.F.);
#205=ORIENTED_EDGE('',*,*,#164,.F.);
#206=ORIENTED_EDGE('',*,*,#165,.T.);
#207=ORIENTED_EDGE('',*,*,#166,.F.);
#208=ORIENTED_EDGE('',*,*,#162,.F.);
#209=ORIENTED_EDGE('',*,*,#167,.F.);
#210=ORIENTED_EDGE('',*,*,#148,.T.);
#211=ORIENTED_EDGE('',*,*,#168,.F.);
#212=ORIENTED_EDGE('',*,*,#165,.F.);
#213=ORIENTED_EDGE('',*,*,#169,.F.);
#214=ORIENTED_EDGE('',*,*,#170,.T.);
#215=ORIENTED_EDGE('',*,*,#171,.F.);
#216=ORIENTED_EDGE('',*,*,#172,.F.);
#217=ORIENTED_EDGE('',*,*,#173,.F.);
#218=ORIENTED_EDGE('',*,*,#172,.T.);
#219=ORIENTED_EDGE('',*,*,#174,.F.);
#220=ORIENTED_EDGE('',*,*,#175,.F.);
#221=ORIENTED_EDGE('',*,*,#176,.F.);
#222=ORIENTED_EDGE('',*,*,#175,.T.);
#223=ORIENTED_EDGE('',*,*,#177,.F.);
#224=ORIENTED_EDGE('',*,*,#178,.F.);
#225=ORIENTED_EDGE('',*,*,#179,.F.);
#226=ORIENTED_EDGE('',*,*,#178,.T.);
#227=ORIENTED_EDGE('',*,*,#180,.F.);
#228=ORIENTED_EDGE('',*,*,#170,.F.);
#229=ORIENTED_EDGE('',*,*,#179,.T.);
#230=ORIENTED_EDGE('',*,*,#169,.T.);
#231=ORIENTED_EDGE('',*,*,#173,.T.);
#232=ORIENTED_EDGE('',*,*,#176,.T.);
#233=ORIENTED_EDGE('',*,*,#145,.T.);
#234=ORIENTED_EDGE('',*,*,#167,.T.);
#235=ORIENTED_EDGE('',*,*,#164,.T.);
#236=ORIENTED_EDGE('',*,*,#161,.T.);
#237=ORIENTED_EDGE('',*,*,#158,.T.);
#238=ORIENTED_EDGE('',*,*,#155,.T.);
#239=ORIENTED_EDGE('',*,*,#152,.T.);
#240=ORIENTED_EDGE('',*,*,#149,.T.);
#241=ORIENTED_EDGE('',*,*,#180,.T.);
#242=ORIENTED_EDGE('',*,*,#177,.T.);
#243=ORIENTED_EDGE('',*,*,#174,.T.);
#244=ORIENTED_EDGE('',*,*,#171,.T.);
#245=ORIENTED_EDGE('',*,*,#147,.T.);
#246=ORIENTED_EDGE('',*,*,#151,.T.);
#247=ORIENTED_EDGE('',*,*,#154,.T.);
#248=ORIENTED_EDGE('',*,*,#157,.T.);
#249=ORIENTED_EDGE('',*,*,#160,.T.);
#250=ORIENTED_EDGE('',*,*,#163,.T.);
#251=ORIENTED_EDGE('',*,*,#166,.T.);
#252=ORIENTED_EDGE('',*,*,#168,.T.);
#253=CYLINDRICAL_SURFACE('',#291,2.);
#254=CYLINDRICAL_SURFACE('',#295,2.);
#255=CYLINDRICAL_SURFACE('',#299,2.00000000000001);
#256=CYLINDRICAL_SURFACE('',#303,2.);
#257=ADVANCED_FACE('',(#27),#253,.F.);
#258=ADVANCED_FACE('',(#28),#17,.F.);
#259=ADVANCED_FACE('',(#29),#254,.F.);
#260=ADVANCED_FACE('',(#30),#18,.F.);
#261=ADVANCED_FACE('',(#31),#255,.F.);
#262=ADVANCED_FACE('',(#32),#19,.F.);
#263=ADVANCED_FACE('',(#33),#256,.F.);
#264=ADVANCED_FACE('',(#34),#20,.F.);
#265=ADVANCED_FACE('',(#35),#21,.T.);
#266=ADVANCED_FACE('',(#36),#22,.T.);
#267=ADVANCED_FACE('',(#37),#23,.T.);
#268=ADVANCED_FACE('',(#38),#24,.T.);
#269=ADVANCED_FACE('',(#39,#15),#25,.T.);
#270=ADVANCED_FACE('',(#40,#16),#26,.T.);
#271=CLOSED_SHELL('',(#257,#258,#259,#260,#261,#262,#263,#264,#265,#266,
#267,#268,#269,#270));
#272=DERIVED_UNIT_ELEMENT(#274,1.);
#273=DERIVED_UNIT_ELEMENT(#467,3.);
#274=(
MASS_UNIT()
NAMED_UNIT(*)
SI_UNIT($,.GRAM.)
);
#275=DERIVED_UNIT((#272,#273));
#276=MEASURE_REPRESENTATION_ITEM('density measure',
POSITIVE_RATIO_MEASURE(0.93),#275);
#277=PROPERTY_DEFINITION_REPRESENTATION(#282,#279);
#278=PROPERTY_DEFINITION_REPRESENTATION(#283,#280);
#279=REPRESENTATION('material name',(#281),#464);
#280=REPRESENTATION('density',(#276),#464);
#281=DESCRIPTIVE_REPRESENTATION_ITEM('Rubber','Rubber');
#282=PROPERTY_DEFINITION('material property','material name',#474);
#283=PROPERTY_DEFINITION('material property','density of part',#474);
#284=DATE_TIME_ROLE('creation_date');
#285=APPLIED_DATE_AND_TIME_ASSIGNMENT(#286,#284,(#474));
#286=DATE_AND_TIME(#287,#288);
#287=CALENDAR_DATE(2022,15,11);
#288=LOCAL_TIME(0,0,0.,#289);
#289=COORDINATED_UNIVERSAL_TIME_OFFSET(0,0,.BEHIND.);
#290=AXIS2_PLACEMENT_3D('placement',#387,#313,#314);
#291=AXIS2_PLACEMENT_3D('',#388,#315,#316);
#292=AXIS2_PLACEMENT_3D('',#391,#317,#318);
#293=AXIS2_PLACEMENT_3D('',#395,#320,#321);
#294=AXIS2_PLACEMENT_3D('',#397,#323,#324);
#295=AXIS2_PLACEMENT_3D('',#403,#328,#329);
#296=AXIS2_PLACEMENT_3D('',#405,#330,#331);
#297=AXIS2_PLACEMENT_3D('',#408,#333,#334);
#298=AXIS2_PLACEMENT_3D('',#409,#335,#336);
#299=AXIS2_PLACEMENT_3D('',#415,#340,#341);
#300=AXIS2_PLACEMENT_3D('',#417,#342,#343);
#301=AXIS2_PLACEMENT_3D('',#420,#345,#346);
#302=AXIS2_PLACEMENT_3D('',#421,#347,#348);
#303=AXIS2_PLACEMENT_3D('',#427,#352,#353);
#304=AXIS2_PLACEMENT_3D('',#429,#354,#355);
#305=AXIS2_PLACEMENT_3D('',#432,#357,#358);
#306=AXIS2_PLACEMENT_3D('',#433,#359,#360);
#307=AXIS2_PLACEMENT_3D('',#436,#363,#364);
#308=AXIS2_PLACEMENT_3D('',#445,#369,#370);
#309=AXIS2_PLACEMENT_3D('',#451,#374,#375);
#310=AXIS2_PLACEMENT_3D('',#457,#379,#380);
#311=AXIS2_PLACEMENT_3D('',#460,#383,#384);
#312=AXIS2_PLACEMENT_3D('',#461,#385,#386);
#313=DIRECTION('axis',(0.,0.,1.));
#314=DIRECTION('refdir',(1.,0.,0.));
#315=DIRECTION('center_axis',(0.,0.,-1.));
#316=DIRECTION('ref_axis',(0.,-1.,0.));
#317=DIRECTION('center_axis',(0.,0.,-1.));
#318=DIRECTION('ref_axis',(0.,-1.,0.));
#319=DIRECTION('',(0.,0.,-1.));
#320=DIRECTION('center_axis',(0.,0.,1.));
#321=DIRECTION('ref_axis',(0.,-1.,0.));
#322=DIRECTION('',(0.,0.,-1.));
#323=DIRECTION('center_axis',(1.,0.,0.));
#324=DIRECTION('ref_axis',(0.,-1.,0.));
#325=DIRECTION('',(0.,-1.,0.));
#326=DIRECTION('',(0.,0.,-1.));
#327=DIRECTION('',(0.,1.,0.));
#328=DIRECTION('center_axis',(0.,0.,-1.));
#329=DIRECTION('ref_axis',(1.,0.,0.));
#330=DIRECTION('center_axis',(0.,0.,-1.));
#331=DIRECTION('ref_axis',(1.,0.,0.));
#332=DIRECTION('',(0.,0.,-1.));
#333=DIRECTION('center_axis',(0.,0.,1.));
#334=DIRECTION('ref_axis',(1.,0.,0.));
#335=DIRECTION('center_axis',(0.,1.,0.));
#336=DIRECTION('ref_axis',(1.,0.,0.));
#337=DIRECTION('',(1.,0.,0.));
#338=DIRECTION('',(0.,0.,-1.));
#339=DIRECTION('',(-1.,0.,0.));
#340=DIRECTION('center_axis',(0.,0.,-1.));
#341=DIRECTION('ref_axis',(0.,1.,0.));
#342=DIRECTION('center_axis',(0.,0.,-1.));
#343=DIRECTION('ref_axis',(0.,1.,0.));
#344=DIRECTION('',(0.,0.,-1.));
#345=DIRECTION('center_axis',(0.,0.,1.));
#346=DIRECTION('ref_axis',(0.,1.,0.));
#347=DIRECTION('center_axis',(-1.,-2.83461197776636E-16,0.));
#348=DIRECTION('ref_axis',(-2.83461197776636E-16,1.,0.));
#349=DIRECTION('',(-2.83461197776636E-16,1.,0.));
#350=DIRECTION('',(0.,0.,-1.));
#351=DIRECTION('',(2.83461197776636E-16,-1.,0.));
#352=DIRECTION('center_axis',(0.,0.,-1.));
#353=DIRECTION('ref_axis',(-1.,0.,0.));
#354=DIRECTION('center_axis',(0.,0.,-1.));
#355=DIRECTION('ref_axis',(-1.,0.,0.));
#356=DIRECTION('',(0.,0.,-1.));
#357=DIRECTION('center_axis',(0.,0.,1.));
#358=DIRECTION('ref_axis',(-1.,0.,0.));
#359=DIRECTION('center_axis',(1.88974131851091E-16,-1.,0.));
#360=DIRECTION('ref_axis',(-1.,-1.88974131851091E-16,0.));
#361=DIRECTION('',(-1.,-1.88974131851091E-16,0.));
#362=DIRECTION('',(1.,1.88974131851091E-16,0.));
#363=DIRECTION('center_axis',(1.,0.,0.));
#364=DIRECTION('ref_axis',(0.,-1.,0.));
#365=DIRECTION('',(0.,1.,0.));
#366=DIRECTION('',(0.,0.,-1.));
#367=DIRECTION('',(0.,-1.,0.));
#368=DIRECTION('',(0.,0.,-1.));
#369=DIRECTION('center_axis',(0.,1.,0.));
#370=DIRECTION('ref_axis',(1.,0.,0.));
#371=DIRECTION('',(-1.,0.,0.));
#372=DIRECTION('',(1.,0.,0.));
#373=DIRECTION('',(0.,0.,-1.));
#374=DIRECTION('center_axis',(-1.,-9.86864910777917E-17,0.));
#375=DIRECTION('ref_axis',(-9.86864910777917E-17,1.,0.));
#376=DIRECTION('',(9.86864910777917E-17,-1.,0.));
#377=DIRECTION('',(-9.86864910777917E-17,1.,0.));
#378=DIRECTION('',(0.,0.,-1.));
#379=DIRECTION('center_axis',(1.77635683940025E-16,-1.,0.));
#380=DIRECTION('ref_axis',(-1.,-1.77635683940025E-16,0.));
#381=DIRECTION('',(1.,1.77635683940025E-16,0.));
#382=DIRECTION('',(-1.,-1.77635683940025E-16,0.));
#383=DIRECTION('center_axis',(0.,0.,1.));
#384=DIRECTION('ref_axis',(1.,0.,0.));
#385=DIRECTION('center_axis',(0.,0.,-1.));
#386=DIRECTION('ref_axis',(-1.,0.,0.));
#387=CARTESIAN_POINT('',(0.,0.,0.));
#388=CARTESIAN_POINT('Origin',(23.5,-23.5,0.));
#389=CARTESIAN_POINT('',(25.5,-23.5,0.));
#390=CARTESIAN_POINT('',(23.5,-25.5,0.));
#391=CARTESIAN_POINT('Origin',(23.5,-23.5,0.));
#392=CARTESIAN_POINT('',(25.5,-23.5,-5.));
#393=CARTESIAN_POINT('',(25.5,-23.5,0.));
#394=CARTESIAN_POINT('',(23.5,-25.5,-5.));
#395=CARTESIAN_POINT('Origin',(23.5,-23.5,-5.));
#396=CARTESIAN_POINT('',(23.5,-25.5,0.));
#397=CARTESIAN_POINT('Origin',(25.5,23.5,0.));
#398=CARTESIAN_POINT('',(25.5,23.5,0.));
#399=CARTESIAN_POINT('',(25.5,11.75,0.));
#400=CARTESIAN_POINT('',(25.5,23.5,-5.));
#401=CARTESIAN_POINT('',(25.5,23.5,0.));
#402=CARTESIAN_POINT('',(25.5,11.75,-5.));
#403=CARTESIAN_POINT('Origin',(23.5,23.5,0.));
#404=CARTESIAN_POINT('',(23.5,25.5,0.));
#405=CARTESIAN_POINT('Origin',(23.5,23.5,0.));
#406=CARTESIAN_POINT('',(23.5,25.5,-5.));
#407=CARTESIAN_POINT('',(23.5,25.5,0.));
#408=CARTESIAN_POINT('Origin',(23.5,23.5,-5.));
#409=CARTESIAN_POINT('Origin',(-23.5,25.5,0.));
#410=CARTESIAN_POINT('',(-23.5,25.5,0.));
#411=CARTESIAN_POINT('',(-11.75,25.5,0.));
#412=CARTESIAN_POINT('',(-23.5,25.5,-5.));
#413=CARTESIAN_POINT('',(-23.5,25.5,0.));
#414=CARTESIAN_POINT('',(-11.75,25.5,-5.));
#415=CARTESIAN_POINT('Origin',(-23.5,23.5,0.));
#416=CARTESIAN_POINT('',(-25.5,23.5,0.));
#417=CARTESIAN_POINT('Origin',(-23.5,23.5,0.));
#418=CARTESIAN_POINT('',(-25.5,23.5,-5.));
#419=CARTESIAN_POINT('',(-25.5,23.5,0.));
#420=CARTESIAN_POINT('Origin',(-23.5,23.5,-5.));
#421=CARTESIAN_POINT('Origin',(-25.5,-23.5,0.));
#422=CARTESIAN_POINT('',(-25.5,-23.5,0.));
#423=CARTESIAN_POINT('',(-25.5,-11.75,0.));
#424=CARTESIAN_POINT('',(-25.5,-23.5,-5.));
#425=CARTESIAN_POINT('',(-25.5,-23.5,0.));
#426=CARTESIAN_POINT('',(-25.5,-11.75,-5.));
#427=CARTESIAN_POINT('Origin',(-23.5,-23.5,0.));
#428=CARTESIAN_POINT('',(-23.5,-25.5,0.));
#429=CARTESIAN_POINT('Origin',(-23.5,-23.5,0.));
#430=CARTESIAN_POINT('',(-23.5,-25.5,-5.));
#431=CARTESIAN_POINT('',(-23.5,-25.5,0.));
#432=CARTESIAN_POINT('Origin',(-23.5,-23.5,-5.));
#433=CARTESIAN_POINT('Origin',(23.5,-25.5,0.));
#434=CARTESIAN_POINT('',(11.75,-25.5,0.));
#435=CARTESIAN_POINT('',(11.75,-25.5,-5.));
#436=CARTESIAN_POINT('Origin',(100.,90.,0.));
#437=CARTESIAN_POINT('',(100.,-90.,0.));
#438=CARTESIAN_POINT('',(100.,90.,0.));
#439=CARTESIAN_POINT('',(100.,-90.,0.));
#440=CARTESIAN_POINT('',(100.,-90.,-5.));
#441=CARTESIAN_POINT('',(100.,-90.,0.));
#442=CARTESIAN_POINT('',(100.,90.,-5.));
#443=CARTESIAN_POINT('',(100.,-90.,-5.));
#444=CARTESIAN_POINT('',(100.,90.,0.));
#445=CARTESIAN_POINT('Origin',(-100.,90.,0.));
#446=CARTESIAN_POINT('',(-100.,90.,0.));
#447=CARTESIAN_POINT('',(100.,90.,0.));
#448=CARTESIAN_POINT('',(-100.,90.,-5.));
#449=CARTESIAN_POINT('',(100.,90.,-5.));
#450=CARTESIAN_POINT('',(-100.,90.,0.));
#451=CARTESIAN_POINT('Origin',(-100.,-90.,0.));
#452=CARTESIAN_POINT('',(-100.,-90.,0.));
#453=CARTESIAN_POINT('',(-100.,90.,0.));
#454=CARTESIAN_POINT('',(-100.,-90.,-5.));
#455=CARTESIAN_POINT('',(-100.,90.,-5.));
#456=CARTESIAN_POINT('',(-100.,-90.,0.));
#457=CARTESIAN_POINT('Origin',(100.,-90.,0.));
#458=CARTESIAN_POINT('',(-100.,-90.,0.));
#459=CARTESIAN_POINT('',(-100.,-90.,-5.));
#460=CARTESIAN_POINT('Origin',(-1.77635683940025E-14,0.,0.));
#461=CARTESIAN_POINT('Origin',(-1.77635683940025E-14,0.,-5.));
#462=UNCERTAINTY_MEASURE_WITH_UNIT(LENGTH_MEASURE(0.01),#466,
'DISTANCE_ACCURACY_VALUE',
'Maximum model space distance between geometric entities at asserted c
onnectivities');
#463=UNCERTAINTY_MEASURE_WITH_UNIT(LENGTH_MEASURE(0.01),#466,
'DISTANCE_ACCURACY_VALUE',
'Maximum model space distance between geometric entities at asserted c
onnectivities');
#464=(
GEOMETRIC_REPRESENTATION_CONTEXT(3)
GLOBAL_UNCERTAINTY_ASSIGNED_CONTEXT((#462))
GLOBAL_UNIT_ASSIGNED_CONTEXT((#466,#468,#469))
REPRESENTATION_CONTEXT('','3D')
);
#465=(
GEOMETRIC_REPRESENTATION_CONTEXT(3)
GLOBAL_UNCERTAINTY_ASSIGNED_CONTEXT((#463))
GLOBAL_UNIT_ASSIGNED_CONTEXT((#466,#468,#469))
REPRESENTATION_CONTEXT('','3D')
);
#466=(
LENGTH_UNIT()
NAMED_UNIT(*)
SI_UNIT(.MILLI.,.METRE.)
);
#467=(
LENGTH_UNIT()
NAMED_UNIT(*)
SI_UNIT(.CENTI.,.METRE.)
);
#468=(
NAMED_UNIT(*)
PLANE_ANGLE_UNIT()
SI_UNIT($,.RADIAN.)
);
#469=(
NAMED_UNIT(*)
SI_UNIT($,.STERADIAN.)
SOLID_ANGLE_UNIT()
);
#470=SHAPE_DEFINITION_REPRESENTATION(#471,#472);
#471=PRODUCT_DEFINITION_SHAPE('',$,#474);
#472=SHAPE_REPRESENTATION('',(#290),#464);
#473=PRODUCT_DEFINITION_CONTEXT('part definition',#478,'design');
#474=PRODUCT_DEFINITION('GF 25','GF 25',#475,#473);
#475=PRODUCT_DEFINITION_FORMATION('',$,#480);
#476=PRODUCT_RELATED_PRODUCT_CATEGORY('GF 25','GF 25',(#480));
#477=APPLICATION_PROTOCOL_DEFINITION('international standard',
'automotive_design',2009,#478);
#478=APPLICATION_CONTEXT(
'Core Data for Automotive Mechanical Design Process');
#479=PRODUCT_CONTEXT('part definition',#478,'mechanical');
#480=PRODUCT('GF 25','GF 25',$,(#479));
#481=PRESENTATION_STYLE_ASSIGNMENT((#482));
#482=SURFACE_STYLE_USAGE(.BOTH.,#485);
#483=SURFACE_STYLE_RENDERING_WITH_PROPERTIES($,#489,(#484));
#484=SURFACE_STYLE_TRANSPARENT(0.);
#485=SURFACE_SIDE_STYLE('',(#486,#483));
#486=SURFACE_STYLE_FILL_AREA(#487);
#487=FILL_AREA_STYLE('',(#488));
#488=FILL_AREA_STYLE_COLOUR('',#489);
#489=COLOUR_RGB('',0.250980392156863,0.250980392156863,0.250980392156863);
ENDSEC;
END-ISO-10303-21;
